ISO-10303-21;
HEADER;
FILE_DESCRIPTION (( 'STEP AP203' ),
    '1' );
FILE_NAME ('447-800-09.STEP',
    '2022-06-30T14:23:52',
    ( '' ),
    ( '' ),
    'SwSTEP 2.0',
    'SolidWorks 2018',
    '' );
FILE_SCHEMA (( 'CONFIG_CONTROL_DESIGN' ));
ENDSEC;

DATA;
#1 = ORIENTED_EDGE ( 'NONE', *, *, #127, .F. ) ;
#2 = EDGE_CURVE ( 'NONE', #25, #83, #20, .T. ) ;
#3 = LINE ( 'NONE', #53, #109 ) ;
#4 = DIRECTION ( 'NONE',  ( -0.000000000000000000, -0.000000000000000000, -1.000000000000000000 ) ) ;
#5 = ORIENTED_EDGE ( 'NONE', *, *, #104, .F. ) ;
#6 = DIRECTION ( 'NONE',  ( 1.000000000000000000, 0.000000000000000000, 0.000000000000000000 ) ) ;
#7 = DESIGN_CONTEXT ( 'detailed design', #190, 'design' ) ;
#8 = CARTESIAN_POINT ( 'NONE',  ( 0.000000000000000000, 0.000000000000000000, 1.500000000000000000 ) ) ;
#9 = DIRECTION ( 'NONE',  ( 0.000000000000000000, 0.000000000000000000, 1.000000000000000000 ) ) ;
#10 = PERSON ( 'UNSPECIFIED', 'UNSPECIFIED', 'UNSPECIFIED', ('UNSPECIFIED'), ('UNSPECIFIED'), ('UNSPECIFIED') ) ;
#11 = DIRECTION ( 'NONE',  ( 1.000000000000000000, 0.000000000000000000, 0.000000000000000000 ) ) ;
#12 = LOCAL_TIME ( 16, 23, 52.00000000000000000, #41 ) ;
#13 = CC_DESIGN_APPROVAL ( #37, ( #160 ) ) ;
#14 = EDGE_LOOP ( 'NONE', ( #228, #210, #185, #189 ) ) ;
#15 = APPROVAL_ROLE ( '' ) ;
#16 = SECURITY_CLASSIFICATION_LEVEL ( 'unclassified' ) ;
#17 = APPLICATION_PROTOCOL_DEFINITION ( 'international standard', 'config_control_design', 1994, #52 ) ;
#18 = VERTEX_POINT ( 'NONE', #196 ) ;
#19 = PERSON_AND_ORGANIZATION ( #10, #142 ) ;
#20 = CIRCLE ( 'NONE', #171, 4.000000000000000000 ) ;
#21 = APPROVAL ( #227, 'UNSPECIFIED' ) ;
#22 = CIRCLE ( 'NONE', #93, 4.000000000000000000 ) ;
#23 = EDGE_CURVE ( 'NONE', #79, #198, #178, .T. ) ;
#24 = ORIENTED_EDGE ( 'NONE', *, *, #23, .F. ) ;
#25 = VERTEX_POINT ( 'NONE', #213 ) ;
#26 = DIRECTION ( 'NONE',  ( 0.000000000000000000, 0.000000000000000000, 1.000000000000000000 ) ) ;
#27 = CARTESIAN_POINT ( 'NONE',  ( 0.000000000000000000, 0.000000000000000000, 0.000000000000000000 ) ) ;
#28 = ORIENTED_EDGE ( 'NONE', *, *, #113, .T. ) ;
#29 = CARTESIAN_POINT ( 'NONE',  ( -5.500000000000000888, 0.000000000000000000, 0.000000000000000000 ) ) ;
#30 = CC_DESIGN_SECURITY_CLASSIFICATION ( #160, ( #87 ) ) ;
#31 = CALENDAR_DATE ( 2022, 30, 6 ) ;
#32 = DIRECTION ( 'NONE',  ( 1.000000000000000000, 0.000000000000000000, -0.000000000000000000 ) ) ;
#33 = APPROVAL_PERSON_ORGANIZATION ( #187, #37, #15 ) ;
#34 = MECHANICAL_CONTEXT ( 'NONE', #52, 'mechanical' ) ;
#35 = DIRECTION ( 'NONE',  ( 0.000000000000000000, 0.000000000000000000, 1.000000000000000000 ) ) ;
#36 = AXIS2_PLACEMENT_3D ( 'NONE', #110, #241, #112 ) ;
#37 = APPROVAL ( #136, 'UNSPECIFIED' ) ;
#38 = DIRECTION ( 'NONE',  ( -0.000000000000000000, -0.000000000000000000, -1.000000000000000000 ) ) ;
#39 = ORIENTED_EDGE ( 'NONE', *, *, #127, .T. ) ;
#40 = AXIS2_PLACEMENT_3D ( 'NONE', #230, #35, #11 ) ;
#41 = COORDINATED_UNIVERSAL_TIME_OFFSET ( 1, 0, .AHEAD. ) ;
#42 = EDGE_LOOP ( 'NONE', ( #97, #66 ) ) ;
#43 = CC_DESIGN_APPROVAL ( #21, ( #99 ) ) ;
#44 = LOCAL_TIME ( 16, 23, 52.00000000000000000, #172 ) ;
#45 = CIRCLE ( 'NONE', #60, 5.500000000000000888 ) ;
#46 = CARTESIAN_POINT ( 'NONE',  ( 0.000000000000000000, 0.000000000000000000, 1.500000000000000000 ) ) ;
#47 = AXIS2_PLACEMENT_3D ( 'NONE', #27, #202, #159 ) ;
#48 = DIRECTION ( 'NONE',  ( -0.000000000000000000, -0.000000000000000000, -1.000000000000000000 ) ) ;
#49 = CARTESIAN_POINT ( 'NONE',  ( -5.500000000000000888, 0.000000000000000000, 1.500000000000000000 ) ) ;
#50 = AXIS2_PLACEMENT_3D ( 'NONE', #8, #133, #32 ) ;
#51 =( NAMED_UNIT ( * ) PLANE_ANGLE_UNIT ( ) SI_UNIT ( $, .RADIAN. ) );
#52 = APPLICATION_CONTEXT ( 'configuration controlled 3d designs of mechanical parts and assemblies' ) ;
#53 = CARTESIAN_POINT ( 'NONE',  ( 4.000000000000000000, 4.898587196589412829E-16, 1.500000000000000000 ) ) ;
#54 = APPROVAL_ROLE ( '' ) ;
#55 = PERSON_AND_ORGANIZATION_ROLE ( 'creator' ) ;
#56 = FACE_OUTER_BOUND ( 'NONE', #121, .T. ) ;
#57 = EDGE_CURVE ( 'NONE', #18, #239, #205, .T. ) ;
#58 = CC_DESIGN_APPROVAL ( #105, ( #87 ) ) ;
#59 = FACE_OUTER_BOUND ( 'NONE', #167, .T. ) ;
#60 = AXIS2_PLACEMENT_3D ( 'NONE', #98, #69, #220 ) ;
#61 = CC_DESIGN_DATE_AND_TIME_ASSIGNMENT ( #247, #139, ( #160 ) ) ;
#62 = ADVANCED_FACE ( 'NONE', ( #59 ), #151, .F. ) ;
#63 = SHAPE_DEFINITION_REPRESENTATION ( #231, #240 ) ;
#64 = ADVANCED_FACE ( 'NONE', ( #56, #107 ), #115, .F. ) ;
#65 = PERSON_AND_ORGANIZATION ( #10, #142 ) ;
#66 = ORIENTED_EDGE ( 'NONE', *, *, #113, .F. ) ;
#67 = CLOSED_SHELL ( 'NONE', ( #62, #114, #155, #64, #212, #82 ) ) ;
#68 = DIRECTION ( 'NONE',  ( 1.000000000000000000, 0.000000000000000000, 0.000000000000000000 ) ) ;
#69 = DIRECTION ( 'NONE',  ( 0.000000000000000000, 0.000000000000000000, 1.000000000000000000 ) ) ;
#70 = LINE ( 'NONE', #49, #128 ) ;
#71 = DIRECTION ( 'NONE',  ( 0.000000000000000000, 0.000000000000000000, 1.000000000000000000 ) ) ;
#72 = EDGE_CURVE ( 'NONE', #249, #175, #70, .T. ) ;
#73 = CARTESIAN_POINT ( 'NONE',  ( 0.000000000000000000, 0.000000000000000000, 1.500000000000000000 ) ) ;
#74 = CYLINDRICAL_SURFACE ( 'NONE', #248, 5.500000000000000888 ) ;
#75 = ORIENTED_EDGE ( 'NONE', *, *, #180, .F. ) ;
#76 = APPROVAL_STATUS ( 'not_yet_approved' ) ;
#77 = CARTESIAN_POINT ( 'NONE',  ( -5.500000000000000888, 0.000000000000000000, 1.500000000000000000 ) ) ;
#78 = APPLICATION_PROTOCOL_DEFINITION ( 'international standard', 'config_control_design', 1994, #190 ) ;
#79 = VERTEX_POINT ( 'NONE', #242 ) ;
#80 = CC_DESIGN_PERSON_AND_ORGANIZATION_ASSIGNMENT ( #86, #152, ( #111 ) ) ;
#81 = EDGE_LOOP ( 'NONE', ( #219, #225, #236, #174 ) ) ;
#82 = ADVANCED_FACE ( 'NONE', ( #233 ), #117, .F. ) ;
#83 = VERTEX_POINT ( 'NONE', #200 ) ;
#84 = CC_DESIGN_PERSON_AND_ORGANIZATION_ASSIGNMENT ( #134, #120, ( #87 ) ) ;
#85 = EDGE_CURVE ( 'NONE', #175, #239, #45, .T. ) ;
#86 = PERSON_AND_ORGANIZATION ( #10, #142 ) ;
#87 = PRODUCT_DEFINITION_FORMATION_WITH_SPECIFIED_SOURCE ( 'ANY', '', #111, .NOT_KNOWN. ) ;
#88 = CALENDAR_DATE ( 2022, 30, 6 ) ;
#89 = CARTESIAN_POINT ( 'NONE',  ( 0.000000000000000000, 0.000000000000000000, 1.500000000000000000 ) ) ;
#90 = CARTESIAN_POINT ( 'NONE',  ( 0.000000000000000000, 0.000000000000000000, 0.000000000000000000 ) ) ;
#91 = CIRCLE ( 'NONE', #36, 4.000000000000000000 ) ;
#92 = DIRECTION ( 'NONE',  ( -1.000000000000000000, 0.000000000000000000, 0.000000000000000000 ) ) ;
#93 = AXIS2_PLACEMENT_3D ( 'NONE', #223, #94, #132 ) ;
#94 = DIRECTION ( 'NONE',  ( 0.000000000000000000, 0.000000000000000000, 1.000000000000000000 ) ) ;
#95 = CARTESIAN_POINT ( 'NONE',  ( 5.500000000000000888, 6.735557395310443009E-16, 1.500000000000000000 ) ) ;
#96 = DATE_AND_TIME ( #164, #44 ) ;
#97 = ORIENTED_EDGE ( 'NONE', *, *, #2, .F. ) ;
#98 = CARTESIAN_POINT ( 'NONE',  ( 0.000000000000000000, 0.000000000000000000, 0.000000000000000000 ) ) ;
#99 = PRODUCT_DEFINITION ( 'UNKNOWN', '', #87, #7 ) ;
#100 = DIRECTION ( 'NONE',  ( -0.000000000000000000, -0.000000000000000000, -1.000000000000000000 ) ) ;
#101 = CARTESIAN_POINT ( 'NONE',  ( 0.000000000000000000, 0.000000000000000000, 0.000000000000000000 ) ) ;
#102 = DATE_AND_TIME ( #193, #179 ) ;
#103 = CIRCLE ( 'NONE', #40, 5.500000000000000888 ) ;
#104 = EDGE_CURVE ( 'NONE', #239, #175, #211, .T. ) ;
#105 = APPROVAL ( #76, 'UNSPECIFIED' ) ;
#106 = APPROVAL_PERSON_ORGANIZATION ( #191, #21, #54 ) ;
#107 = FACE_BOUND ( 'NONE', #130, .T. ) ;
#108 = APPROVAL_DATE_TIME ( #102, #105 ) ;
#109 = VECTOR ( 'NONE', #100, 1000.000000000000000 ) ;
#110 = CARTESIAN_POINT ( 'NONE',  ( 0.000000000000000000, 0.000000000000000000, 1.500000000000000000 ) ) ;
#111 = PRODUCT ( '447-800-09', '447-800-09', '', ( #34 ) ) ;
#112 = DIRECTION ( 'NONE',  ( 1.000000000000000000, 0.000000000000000000, 0.000000000000000000 ) ) ;
#113 = EDGE_CURVE ( 'NONE', #83, #25, #91, .T. ) ;
#114 = ADVANCED_FACE ( 'NONE', ( #215 ), #74, .T. ) ;
#115 = PLANE ( 'NONE',  #47 ) ;
#116 = DIRECTION ( 'NONE',  ( -0.000000000000000000, -0.000000000000000000, -1.000000000000000000 ) ) ;
#117 = CYLINDRICAL_SURFACE ( 'NONE', #144, 4.000000000000000000 ) ;
#118 = MANIFOLD_SOLID_BREP ( 'Aufsatz-Linear austragen1', #67 ) ;
#119 = AXIS2_PLACEMENT_3D ( 'NONE', #101, #206, #165 ) ;
#120 = PERSON_AND_ORGANIZATION_ROLE ( 'creator' ) ;
#121 = EDGE_LOOP ( 'NONE', ( #154, #5 ) ) ;
#122 = PERSON_AND_ORGANIZATION_ROLE ( 'design_supplier' ) ;
#123 = PERSON_AND_ORGANIZATION ( #10, #142 ) ;
#124 = ORIENTED_EDGE ( 'NONE', *, *, #180, .T. ) ;
#125 = EDGE_LOOP ( 'NONE', ( #173, #126 ) ) ;
#126 = ORIENTED_EDGE ( 'NONE', *, *, #243, .T. ) ;
#127 = EDGE_CURVE ( 'NONE', #198, #79, #22, .T. ) ;
#128 = VECTOR ( 'NONE', #48, 1000.000000000000000 ) ;
#129 = ORIENTED_EDGE ( 'NONE', *, *, #2, .T. ) ;
#130 = EDGE_LOOP ( 'NONE', ( #39, #143 ) ) ;
#131 = CC_DESIGN_PERSON_AND_ORGANIZATION_ASSIGNMENT ( #19, #55, ( #99 ) ) ;
#132 = DIRECTION ( 'NONE',  ( 1.000000000000000000, 0.000000000000000000, 0.000000000000000000 ) ) ;
#133 = DIRECTION ( 'NONE',  ( 0.000000000000000000, 0.000000000000000000, 1.000000000000000000 ) ) ;
#134 = PERSON_AND_ORGANIZATION ( #10, #142 ) ;
#135 = VECTOR ( 'NONE', #218, 1000.000000000000000 ) ;
#136 = APPROVAL_STATUS ( 'not_yet_approved' ) ;
#137 = AXIS2_PLACEMENT_3D ( 'NONE', #226, #116, #141 ) ;
#138 = CC_DESIGN_DATE_AND_TIME_ASSIGNMENT ( #184, #245, ( #99 ) ) ;
#139 = DATE_TIME_ROLE ( 'classification_date' ) ;
#140 = PERSON_AND_ORGANIZATION ( #10, #142 ) ;
#141 = DIRECTION ( 'NONE',  ( -1.000000000000000000, 0.000000000000000000, 0.000000000000000000 ) ) ;
#142 = ORGANIZATION ( 'UNSPECIFIED', 'UNSPECIFIED', '' ) ;
#143 = ORIENTED_EDGE ( 'NONE', *, *, #23, .T. ) ;
#144 = AXIS2_PLACEMENT_3D ( 'NONE', #182, #162, #183 ) ;
#145 = EDGE_LOOP ( 'NONE', ( #224, #28, #124, #24 ) ) ;
#146 = DIRECTION ( 'NONE',  ( -1.000000000000000000, 0.000000000000000000, 0.000000000000000000 ) ) ;
#147 = CARTESIAN_POINT ( 'NONE',  ( 0.000000000000000000, 0.000000000000000000, 0.000000000000000000 ) ) ;
#148 = EDGE_CURVE ( 'NONE', #249, #18, #201, .T. ) ;
#149 = DIRECTION ( 'NONE',  ( 1.000000000000000000, 0.000000000000000000, 0.000000000000000000 ) ) ;
#150 =( NAMED_UNIT ( * ) SI_UNIT ( $, .STERADIAN. ) SOLID_ANGLE_UNIT ( ) );
#151 = CYLINDRICAL_SURFACE ( 'NONE', #195, 4.000000000000000000 ) ;
#152 = PERSON_AND_ORGANIZATION_ROLE ( 'design_owner' ) ;
#153 = APPROVAL_DATE_TIME ( #204, #37 ) ;
#154 = ORIENTED_EDGE ( 'NONE', *, *, #85, .F. ) ;
#155 = ADVANCED_FACE ( 'NONE', ( #161, #170 ), #221, .T. ) ;
#156 = CYLINDRICAL_SURFACE ( 'NONE', #137, 5.500000000000000888 ) ;
#157 = LOCAL_TIME ( 16, 23, 52.00000000000000000, #209 ) ;
#158 = VECTOR ( 'NONE', #38, 1000.000000000000000 ) ;
#159 = DIRECTION ( 'NONE',  ( 1.000000000000000000, 0.000000000000000000, -0.000000000000000000 ) ) ;
#160 = SECURITY_CLASSIFICATION ( '', '', #16 ) ;
#161 = FACE_OUTER_BOUND ( 'NONE', #125, .T. ) ;
#162 = DIRECTION ( 'NONE',  ( -0.000000000000000000, -0.000000000000000000, -1.000000000000000000 ) ) ;
#163 = CARTESIAN_POINT ( 'NONE',  ( -4.000000000000000000, 0.000000000000000000, 1.500000000000000000 ) ) ;
#164 = CALENDAR_DATE ( 2022, 30, 6 ) ;
#165 = DIRECTION ( 'NONE',  ( 1.000000000000000000, 0.000000000000000000, 0.000000000000000000 ) ) ;
#166 = LINE ( 'NONE', #163, #158 ) ;
#167 = EDGE_LOOP ( 'NONE', ( #129, #207, #1, #75 ) ) ;
#168 =( LENGTH_UNIT ( ) NAMED_UNIT ( * ) SI_UNIT ( .MILLI., .METRE. ) );
#169 = CC_DESIGN_PERSON_AND_ORGANIZATION_ASSIGNMENT ( #65, #229, ( #160 ) ) ;
#170 = FACE_BOUND ( 'NONE', #42, .T. ) ;
#171 = AXIS2_PLACEMENT_3D ( 'NONE', #89, #26, #68 ) ;
#172 = COORDINATED_UNIVERSAL_TIME_OFFSET ( 1, 0, .AHEAD. ) ;
#173 = ORIENTED_EDGE ( 'NONE', *, *, #148, .T. ) ;
#174 = ORIENTED_EDGE ( 'NONE', *, *, #72, .F. ) ;
#175 = VERTEX_POINT ( 'NONE', #29 ) ;
#176 = CC_DESIGN_PERSON_AND_ORGANIZATION_ASSIGNMENT ( #140, #122, ( #87 ) ) ;
#177 = COORDINATED_UNIVERSAL_TIME_OFFSET ( 1, 0, .AHEAD. ) ;
#178 = CIRCLE ( 'NONE', #208, 4.000000000000000000 ) ;
#179 = LOCAL_TIME ( 16, 23, 52.00000000000000000, #177 ) ;
#180 = EDGE_CURVE ( 'NONE', #25, #198, #166, .T. ) ;
#181 = DIRECTION ( 'NONE',  ( 1.000000000000000000, 0.000000000000000000, 0.000000000000000000 ) ) ;
#182 = CARTESIAN_POINT ( 'NONE',  ( 0.000000000000000000, 0.000000000000000000, 1.500000000000000000 ) ) ;
#183 = DIRECTION ( 'NONE',  ( -1.000000000000000000, 0.000000000000000000, 0.000000000000000000 ) ) ;
#184 = DATE_AND_TIME ( #31, #244 ) ;
#185 = ORIENTED_EDGE ( 'NONE', *, *, #72, .T. ) ;
#186 = CARTESIAN_POINT ( 'NONE',  ( 5.500000000000000888, 6.735557395310443009E-16, 0.000000000000000000 ) ) ;
#187 = PERSON_AND_ORGANIZATION ( #10, #142 ) ;
#188 = CARTESIAN_POINT ( 'NONE',  ( -4.000000000000000000, 0.000000000000000000, 0.000000000000000000 ) ) ;
#189 = ORIENTED_EDGE ( 'NONE', *, *, #85, .T. ) ;
#190 = APPLICATION_CONTEXT ( 'configuration controlled 3d designs of mechanical parts and assemblies' ) ;
#191 = PERSON_AND_ORGANIZATION ( #10, #142 ) ;
#192 = EDGE_CURVE ( 'NONE', #83, #79, #3, .T. ) ;
#193 = CALENDAR_DATE ( 2022, 30, 6 ) ;
#194 = UNCERTAINTY_MEASURE_WITH_UNIT (LENGTH_MEASURE( 1.000000000000000082E-05 ), #168, 'distance_accuracy_value', 'NONE');
#195 = AXIS2_PLACEMENT_3D ( 'NONE', #46, #197, #92 ) ;
#196 = CARTESIAN_POINT ( 'NONE',  ( 5.500000000000000888, 6.735557395310443009E-16, 1.500000000000000000 ) ) ;
#197 = DIRECTION ( 'NONE',  ( -0.000000000000000000, -0.000000000000000000, -1.000000000000000000 ) ) ;
#198 = VERTEX_POINT ( 'NONE', #188 ) ;
#199 = CARTESIAN_POINT ( 'NONE',  ( 0.000000000000000000, 0.000000000000000000, 1.500000000000000000 ) ) ;
#200 = CARTESIAN_POINT ( 'NONE',  ( 4.000000000000000000, 4.898587196589412829E-16, 1.500000000000000000 ) ) ;
#201 = CIRCLE ( 'NONE', #235, 5.500000000000000888 ) ;
#202 = DIRECTION ( 'NONE',  ( 0.000000000000000000, 0.000000000000000000, 1.000000000000000000 ) ) ;
#203 = APPROVAL_ROLE ( '' ) ;
#204 = DATE_AND_TIME ( #88, #157 ) ;
#205 = LINE ( 'NONE', #95, #135 ) ;
#206 = DIRECTION ( 'NONE',  ( 0.000000000000000000, 0.000000000000000000, 1.000000000000000000 ) ) ;
#207 = ORIENTED_EDGE ( 'NONE', *, *, #192, .T. ) ;
#208 = AXIS2_PLACEMENT_3D ( 'NONE', #90, #217, #181 ) ;
#209 = COORDINATED_UNIVERSAL_TIME_OFFSET ( 1, 0, .AHEAD. ) ;
#210 = ORIENTED_EDGE ( 'NONE', *, *, #148, .F. ) ;
#211 = CIRCLE ( 'NONE', #222, 5.500000000000000888 ) ;
#212 = ADVANCED_FACE ( 'NONE', ( #246 ), #156, .T. ) ;
#213 = CARTESIAN_POINT ( 'NONE',  ( -4.000000000000000000, 0.000000000000000000, 1.500000000000000000 ) ) ;
#214 = COORDINATED_UNIVERSAL_TIME_OFFSET ( 1, 0, .AHEAD. ) ;
#215 = FACE_OUTER_BOUND ( 'NONE', #81, .T. ) ;
#216 =( GEOMETRIC_REPRESENTATION_CONTEXT ( 3 ) GLOBAL_UNCERTAINTY_ASSIGNED_CONTEXT ( ( #194 ) ) GLOBAL_UNIT_ASSIGNED_CONTEXT ( ( #168, #51, #150 ) ) REPRESENTATION_CONTEXT ( 'NONE', 'WORKASPACE' ) );
#217 = DIRECTION ( 'NONE',  ( 0.000000000000000000, 0.000000000000000000, 1.000000000000000000 ) ) ;
#218 = DIRECTION ( 'NONE',  ( -0.000000000000000000, -0.000000000000000000, -1.000000000000000000 ) ) ;
#219 = ORIENTED_EDGE ( 'NONE', *, *, #243, .F. ) ;
#220 = DIRECTION ( 'NONE',  ( 1.000000000000000000, 0.000000000000000000, 0.000000000000000000 ) ) ;
#221 = PLANE ( 'NONE',  #50 ) ;
#222 = AXIS2_PLACEMENT_3D ( 'NONE', #147, #9, #149 ) ;
#223 = CARTESIAN_POINT ( 'NONE',  ( 0.000000000000000000, 0.000000000000000000, 0.000000000000000000 ) ) ;
#224 = ORIENTED_EDGE ( 'NONE', *, *, #192, .F. ) ;
#225 = ORIENTED_EDGE ( 'NONE', *, *, #57, .T. ) ;
#226 = CARTESIAN_POINT ( 'NONE',  ( 0.000000000000000000, 0.000000000000000000, 1.500000000000000000 ) ) ;
#227 = APPROVAL_STATUS ( 'not_yet_approved' ) ;
#228 = ORIENTED_EDGE ( 'NONE', *, *, #57, .F. ) ;
#229 = PERSON_AND_ORGANIZATION_ROLE ( 'classification_officer' ) ;
#230 = CARTESIAN_POINT ( 'NONE',  ( 0.000000000000000000, 0.000000000000000000, 1.500000000000000000 ) ) ;
#231 = PRODUCT_DEFINITION_SHAPE ( 'NONE', 'NONE',  #99 ) ;
#232 = APPROVAL_PERSON_ORGANIZATION ( #123, #105, #203 ) ;
#233 = FACE_OUTER_BOUND ( 'NONE', #145, .T. ) ;
#234 = APPROVAL_DATE_TIME ( #96, #21 ) ;
#235 = AXIS2_PLACEMENT_3D ( 'NONE', #73, #71, #6 ) ;
#236 = ORIENTED_EDGE ( 'NONE', *, *, #104, .T. ) ;
#237 = PRODUCT_RELATED_PRODUCT_CATEGORY ( 'detail', '', ( #111 ) ) ;
#238 = CALENDAR_DATE ( 2022, 30, 6 ) ;
#239 = VERTEX_POINT ( 'NONE', #186 ) ;
#240 = ADVANCED_BREP_SHAPE_REPRESENTATION ( '447-800-09', ( #118, #119 ), #216 ) ;
#241 = DIRECTION ( 'NONE',  ( 0.000000000000000000, 0.000000000000000000, 1.000000000000000000 ) ) ;
#242 = CARTESIAN_POINT ( 'NONE',  ( 4.000000000000000000, 4.898587196589412829E-16, 0.000000000000000000 ) ) ;
#243 = EDGE_CURVE ( 'NONE', #18, #249, #103, .T. ) ;
#244 = LOCAL_TIME ( 16, 23, 52.00000000000000000, #214 ) ;
#245 = DATE_TIME_ROLE ( 'creation_date' ) ;
#246 = FACE_OUTER_BOUND ( 'NONE', #14, .T. ) ;
#247 = DATE_AND_TIME ( #238, #12 ) ;
#248 = AXIS2_PLACEMENT_3D ( 'NONE', #199, #4, #146 ) ;
#249 = VERTEX_POINT ( 'NONE', #77 ) ;
ENDSEC;
END-ISO-10303-21;
